Corações Sentidos Corações

(INTRO) Havia de haver uma fes-
e||-----------------------2---------------------------5-------|-3------------------
B||-5---------8-----5---------------4--------7------------7---|--------3--------3---
G||-4----4---------------------2----2---2----5----5---------5-|------4----------4---
D||-5------5-----5----(5)----4--------4------7--7-------7-----|----5------------3---
A||-4--4------4-----------2------2--------2--5------5---------|---------------------
E||-----------------------------------------------------------|-3---------------4---

ta... em toda a... a perfeição manifesta...
e||--------------------------------------------0-2-3-5-------5-------------------------
B||---------3----------------7---------------0-------6---6---6-----6-------5-8-----8---
G||-----5-------5----8-----------8---------0---------------7-----7-------7-------7-----
D||---4-------4---4------7---------7---2-4-------------7-------7-------5-------5-------
A||--------------------9-------9---------------------5-------5-------------------------
E||-5-----5----------7-----7---------0-------------------------------8-------8---------

mais perfeito... havia de haver... uma manhã...
e||------------------------------------------------------0-5----------------------------
B||---7-----4-----4---------8-7------3-----1-0-1-1-----0-1---------3-3------------------
G||-----8---4---4---------9-------9----2-------------2-----------5-------5--------------
D||-------9---4---------9-------9----0---0---------2-----------4-------4---4------------
A||-6-------2---------7-----7--------------------0-----------0-------0------------------
E||-----------------0-------------------------------------------------------------------

efeito... traz um ar... a tua... traz um certo... português...
e||---------------------2---------------------------------------------------------3----
B||-------3-3-------2-------2-----2-5-3-------3---2-3-2-----------2-------------0---3--
G||---4---------4-------------3-----------2---------------3---3-------3-------2-----4--
D||-----4-----4---4---4-----2-----------4-----4-------------4-------4---4---0----------
A||-----------------------------------2-----2---2-------1---------1---1----------------
E||-3-------3-------2-----2-----2-----------------------------------------3------------

dança folião... o que... nascer... (PASSAGEM/INTERLÚDIO)
e||--------------------0-----------------------0-----|-0---------------------------------
B||-5-5---3-3---3-3--0-----5-5---3-3---------0---0---|-5---5-7-8-------10--------10------
G||-5-5---5-5---4-4--0-----5-5---5-5-------0-------0-|-5-5---------8--------10---9----9--
D||-5-5---4-4---5-5--2-----5-5---4-4---2-4-----------|-7---------7---7----9---------9----
A||--------------5-----------------------------------|-0---------------------------------
E||-5---5-5---5-3--3-0---0-5---5-5---0---------------|---------8-------10-----10---------

havia de ser...
e||-7---------------3-------2-----2-------5-2-|-3----------------------------
B||-------7-8-----7-----5-------4-----1-------|-------3-3-----------3--------
G||-----7-------7---------4---2-----2-----2---|-----4---4-------5-------5----
D||---9-------9-------------------0-----0-----|---5-----3-----4-------4---4--
A||-7-------7---------5-----2-----------------|------------------------------
E||-------------------------------------------|-3-------4---5-----5----------

por cima... um outro macho colo q era menino
e||---------------------------0-2-3-5-----------------------------------------------------
B||---------7---------------0---------6---6-------5-8---5-7-------4---4-----8-7-----------
G||-8-----------8---------0-------------7-------7-------------8-----4-----------9---------
D||-----7---------7---2-4---------------------5-------5-----9---9---------9-------9---9---
A||---9-------9---------------------5-----5---------------6-------2-------------7---7-----
E||-7-----7---------0-----------------------8-------8-------------------0-----------------

havia de ser... caminho certo baila mundo...
e||--2-------5-------------0-5-----------------------------------3------------2------------
B||------1-------1-------1-------1---------3-3-------------0-3--------2---2---------2-5----
G||----2-----2-2---2---2-2-----4---4-----2-------5-------2-----2---2--------3-----3--------
D||--0-----0---------------------------4-------4---4---0----------------4-------4----------
A||------------------0-------0-------0-------0---------------------------------------------
E||--------------------------------------------------3-------3--------2-------2------------

como um carrocel nas cores painel gira guerra
e||------------------------------------------------------3--------------------------
B||-3-------3-----2-3-2-------------2-----------0----3-------5-------3---3---3-3----
G||-----2-----2-----------3-------------3---------2----2---2-----5---5---5---4-4----
D||---4-----4---------------4---4-----4---4---0----------------5---5-4---4---5-5----
A||-2-----2-----2-------1-----1-----1-----------------------------------------------
E||-----------------------------------------3--------3-------5-------5-5---5-3---3--

poder o que saber havia de ter toda esta nascida
e||-----0---------------------------0------------------------------------------------------
B||-0---0---5-5---3-3-------------------2-----2-----2-5-3-------3-----3-5-2-------2--------
G||-0---0---5-5---5-5---------0-4-----4-----3-----3---------2-------2---------3---3---3----
D||-2-------5-5---4-4-----2-4-----2-------2-----2---------4---4---4---------4-------4---4--
A||-----------------------------------------------------2-------2---------1-----1----------
E||-0-0---0-5---5-5---5-0-------0-------2-----2--------------------------------------------

orgia havia prazer viver
e||-------------------------------------0-----------------------|--
B||-3-------3------5-5-3-3---3-3----------0--5-5-3-3-------0-3--|--
G||-----4-2-----4--5-5-5-5---4-4-------------5-5-5-5-----2---4--|--
D||---0-------0----5-5-4-4---5-5------2------5-5-4-4---0-----0--|--
A||-------------------------------------------------------------|--
E||-3-------3------5---5---5-3---3-0---------5---5---3-------4--|--

corações sentidos paxiões magoados
e||------------------------------------------------0-0-------------------2-0-----2-------2------
B||-5-5---5---5---5-5---5--5---3-3---3-3---------0-----0-----0---0---0---0---0---1---1-----1----
G||-5-5---5---5---5-5---5--5---4-4---4-4-------0---------0-----0---------0-----0-2-2---2-----2--
D||-5-5---5---5---4-4---4--4---5-5---5-5---2-4-------------2-------2-------------0-------0------
A||--------------------------------------------------------------3-----3------------------------
E||-5---5---5---5-5---5-5------3---3-3-3-0---------0-0------------------------------------------

magoados magoados corações corações paixões
e||---2-------2-------0-----------0----------------------------------------------------0----
B||-------3---------3---------0-----0--5-5-5-5-5-5---5---5---3-3---3---3-----------0--------
G||---------2-----2---------0----------5-5-5-5-5-5---5---5---4-4---4---4---------0-------0--
D||-0---4-------4-------2-4-----2------5-5-5-5-4-4---4---4---5-5---5---5-----2-4-----2------
A||---2-------2---------------2-------------------------------------------------------------
E||-------------------0----------------5---5---5---5---5---5-3---3---3---3-0-------0--------

amadas magoados magoadas
e||---------0-------2-------2-------------2-2-------0---0-------------2-----3---0---2-----
B||-0-----------0-------1-----1-----3-----------2---0-------5-4-5---8-----3-----------1---
G||-----0-----0---0---2---2-----2-------2-----4---4-0-------5-4-5---------2-------0-------
D||---2-----2-------0-------0-----0---4-----4-------2-----2-5-4-5-5-----4-----2-----0-----
A||-3-----3-------------------------2---------------2-2-----3-6-7-----2-----0-------------
E||-------------------------------------------------0-------------------------------------

e||---------------||
B||-------0-3-----||
G||-----2---------||
D||---0-----------||
A||---------------||
E||-3-------------||

"Corações sentidos corações"
Letra e Música de Fausto
(in Atrás dos tempos vêm tempos)
(in O despertar dos Alquimistas)

Havia de haver uma festa
em toda a praça iluminada
a perfeição manifesta
o pôr-do-sol
mais perfeito
a gente toda enfeitada

havia de haver pantominos
uma manhã de domingos
num fantástico efeito

traz um ar gingão
a tua altivez
traz um certo espírito português
dança folião
da maravilha e do lazer
o que espero da vida é nascer

INTERLÚDIO

Havia de ser bailarino
por cima do Sete-Estrelo
um outro macho latino
a adormecer
no teu colo
a fingir que era menino

havia de ser adivinho
pra te mostrar o caminho
de outro caminho mais certo

baila mundo baila
como um carrocel
nas cores mais velas de um painel
gira história gira
essa da guerra e do poder
o que espero da vida é saber

Havia de ter
toda esta alegria
nascida do santo e da orgia
havia de ter
o bem da paz e do prazes
o que espero da vida é viver

Corações sentidos corações
corações são cinzas e paixões
magoados nas vidas mal amadas
magoados nas vidas tão magoadas

Comentários

N&J disse…
Créditos da tab para nuno.pedro.ferreira@gmail.com // elpingo2001@gmail.com
original em cifraclub
https://www.cifraclub.com.br/fausto-bordalo-dias/coracoes-sentidos-coracoes/

Postagens mais visitadas